Audio

Slightly Dissonant G lick


0:26 minutes (399.72 KB)

Here's a smart alec run to use when the intensity of the jam starts to step up a bit.

[tab]|------0---0---------------------|--------------------------------|
|--6/5-------------0-------------|--------------------------------|
|--------6---6/5-------0-----6---|5-3p0---0-----------------------|
|----------------8---8-----6-----|------3---3/2p0h2p0-------------|
|------------------------6-------|--------------------------------|
|--------------------------------|--------------------2/4-0-------|
I M T M I T M T I T I M M M I M I T T[/tab]

 read more »

Slightly Dissonant G Lick


0:23 minutes (360.86 KB)

Here's a smart alec run to use when the intensity of the jam starts to step up a bit.

|------0---0---------------------|--------------------------------|

|--6/5-------------0-------------|--------------------------------|

|--------6---6/5-------0-----6---|5-3p0---0-----------------------|

|----------------8---8-----6-----|------3---3/2p0h2p0-------------|

|------------------------6-------|--------------------------------|

|--------------------------------|--------------------2/4-0-------|

 read more »

Song: "Lucy's Nap"


0:35 minutes (556.42 KB)

This is a bunch of firsts for me. It's the first song I've ever written for the resonator guitar, my first try at recording my reso playing, and the first MP3 file I've ever posted. This is a fun open-position song that's easy to play, which is good 'cause I'm still just a beginning player. :oops:

I wrote this for my Golden Retriever Lucy. She loves to lay on my feet and sleep when I'm practicing on my dobro. She either loves me or my playing (I'm sure it's the former rather then the latter).

Any suggestions or comments are very welcomed. Thanks for listening!

Bob

D Diminished Lick


0:12 minutes (186.17 KB)

D (F,G#,B) Dimished Pattern

|--------------------|

|--------------------|

|----------0-----4-2-|

|3p0---0h3---6-------|

|--------------6-----|

|----4---------------|

 I   T I   M I T M M

User login